Make your own free website on Tripod.com

banner.jpg

This Is Your Life

Home
Guitar & Bass Tabs
Guitar:
This is Your Life-

Tuning: Standard

Verse 1:

e|-4-------4------4-----4----4-------------2--------0---------------2--------|
B|-3-------2------3-----2----4-------------2--------0---------------2--------|
G|-5-------2------5-----2----4-------------2--------4---------------2--------|
D|-5-------2------5-----2----4-------------2--------4---------------2--------|
A|-4--------------4----------6-------------4--------2---------------4--------|
E|-4--------------4----------------------------------------------------------|


e|-4-------------------------4--4-------------4-----4-------2------0-----2---|
B|-3-------------------------2--3-------------2-----4-------2------0-----2---|
G|-5-------------------------2--5-------------2-----4-------2------4-----2---|
D|-5-------------------------2--5-------------2-----4-------2------4-----2---|
A|-4----------------------------4-------------------6-------4------2-----4---|
E|-4----------------------------4----------------------------------X---------|
Chorus:
play 4x

e|----------------0--------------0-------------------0-----------|
B|----------------0--------------0-------------------0-----------|
G ----------------1--------------4-------------------2-----------|
D|----------------2--------------4-------------------2-----------|
A|----------------2--------------2-------------------0-----------|
E|----------------0--------------X-------------------X-----------|
Verse 2:
e|--4----2---4----2-------------------------------------|
B|--3----2---3----2-------------------------------------|
G|--5----2---5----2-------------------------------------|
D|--5----2---5----2-------------------------------------|
A|--4----4---4----4-------------------------------------|
E|--4--------4------------------------------------------|
live solo:
e|------4-----5-4------------------------------------------------------------|
B|----------------5~--4--2--0~-----------------------------------------------|
G|--4-6---4-6----------------------------------------------------------------|
D|---------------------------------------------------------------------------|
A|---------------------------------------------------------------------------|
E|---------------------------------------------------------------------------|
slow chorus

e|------------------------------------------------0--0--0--0--0--0--0------|
B|------------------------------------------------0--0--0--0--0--0--0------|
G|------------------------------------------------2--2--2--2--2--2--2------|
D|------------------------------------------------2--2--2--2--2--2--2------|
A|------------------------------------------------0--0--0--0--0--0--0------|
E|------------------------------------------------X--X--X--X--x--X--X------|

chorus again

KEY:
| / slide up
| \ slide down
| h hammer-on
| p pull-off
| ~ vibrato
| + harmonic
| x Mute note

Provided by Emily (official boards: switching_feet22)

Bass:
g---------------------------|g----------------------------|
d-----------2-------------2-|d-----------------6----------|
a----4----4-----4------4----|a----4----0----4-----2-------|
e------0-------------0------|e----------------------------|
 
Provided by Micheal Wahl, taborama.com