Make your own free website on Tripod.com

banner.jpg

Dare You To Move

Home
Guitar & Bass Tabs
Guitar:
Standard Tuning- (E-A-D-G-B-e)
h = hammer-on
b = bend string
/ = slide up
\ = slide down
~ = let ring

Intro:
e|--0-0-0--000--000--00000000--0000000000000000---|
B|-121212--000--999--00000000--0000000000000000---|
G|--9-9-9--999--999--99999999--9999999999999999---|x2
D|-111111--999--999--99999999--7777777777777777---|
A|------------------------------------------------|
E|------------------------------------------------|
Verse #1:
e|--0-0-0--000--000--00000000--0000000000000000---|
B|-121212--000--999--00000000--0000000000000000---|
G|--9-9-9--999--999--99999999--9999999999999999---|x2
D|-111111--999--999--99999999--7777777777777777---|
A|------------------------------------------------|
E|------------------------------------------------|
 ("everyone's here")
e|--0000000000000000--0000000000000000----| 
B|--0000000000000000--0000000000000000----|
G|--9999999999999999--9999999999999999----|
D|--8888888888888888--7777777777777777----|
A|--9999999999999999----------------------|
E|----------------------------------------|

Verse #2:
e|--0-0-0--000--000--00000000--0000000000000000---|
B|-121212--000--999--00000000--0000000000000000---|
G|--9-9-9--999--999--99999999--9999999999999999---|x2
D|-111111--999--999--99999999--7777777777777777---|
A|------------------------------------------------|
E|------------------------------------------------|
 ("what happens next")
e|--0000000000000000--0000000000000000----|
B|--0000000000000000--0000000000000000----|
G|--4444444444444444--8888888888888888----|
D|--5555555555555555--9999999999999999----|
A|--5555555555555555--9999999999999999----|
E|--3333333333333333--7777777777777777----|
 
Chorus: Guitar 1
e|--0000000000000000--0000000000000000--0000000000000000000000000000--00--|
B|--0000000000000000--0000000000000000--0000000000000000000000000000--00--|
G|--9999999999999999--8888888888888888--6666666666666666666666666666--88--|
D|--9999999999999999--9999999999999999--7777777777777777777777777777--99--|
A|--7777777777777777--9999999999999999--7777777777777777777777777777--99--|
E|--------------------7777777777777777--5555555555555555555555555555--77--|
e|--0000000000000000--0000000000000000--0000000000000000---00--|
B|--0000000000000000--0000000000000000--0000000000000000---00--|
G|--9999999999999999--8888888888888888--6666666666666666---88--|
D|--9999999999999999--9999999999999999--7777777777777777---99--|
A|--7777777777777777--9999999999999999--7777777777777777---99--|
E|--------------------7777777777777777--5555555555555555---77--|

Chorus: Guitar 2
e|------------------------------------------------------------------------|
B|------------------------------------------------------------------------|
G|--9~--------------------------------------------------------------------|
D|--9~----------------9~----------------7~----------------------------9---|
A|--7~----------------9~----------------7~----------------------------9---|
E|--------------------7~----------------5~----------------------------7---|
e|-------------------------------------------------------------|
B|-------------------------------------------------------------|
G|--9~-----------------------------------------------------9---|
D|--9~----------------9~----------------7~-----------------9---|
A|--7~----------------9~----------------7~-----------------7---|
E|--------------------7~----------------5~---------------------|
 
REPEAT INTRO:

REPEAT VERSE #1: (w/ guitar 2 below)
Distorted guitar 2: (octives)                                           
e|--------------------------------------------------------------------------|
B|--------------------------------------------------------------------------|
G|--------------------------------------------------------------------------|
D|--9-111111--9-111111-1111-9-9-------44-----44-----44-66\7777-7777--77-99--|
A|--x--x-x-x--x--x-x-x--x-x-x-x-(x2)--xx-----xx-----xx-xx-xxxx-xxxx--xx-xx--|
E|--7/-9-9-9--7/-9-9-9--9-9-7-7-------22-0h2-22-0h2-22-44\5555-5555--55-77--|
e|--------------------------------------------------------------------------|
B|--------------------------------------------------------------------------|
G|--------------------------------------------------------------------------|
D|--9-111111--9-111111-1111-9-9-------44-----44-----44-66\7777-7777--77-99--|
A|--x--x-x-x--x--x-x-x--x-x-x-x-------xx-----xx-----xx-xx-xxxx-xxxx--xx-xx--|
E|--7/-9-9-9--7/-9-9-9--9-9-7-7-------22-0h2-22-0h2-22-44\5555-5555--55-77--|

REPEAT CHORUS:

Bridge: Guitar 1
e|--0000000000000000--0000000000000000--0000000000000000--0000000000000000--
B|--0000000000000000--0000000000000000--0000000000000000--0000000000000000--
G|--9999999999999999--6666666666666666--9999999999999999--6666666666666666--
D|--9999999999999999--7777777777777777--9999999999999999--7777777777777777--
A|--7777777777777777--7777777777777777--7777777777777777--7777777777777777--
E|--------------------5555555555555555--------------------5555555555555555--
e --0000000000000000--0000000000000000--0~-----0~--|
B --0000000000000000--0000000000000000--0~-----0~--|
G --6666666666666666--6666666666666666--3~-----8~--|
D --6666666666666666--7777777777777777--4~-----9~--|
A --4444444444444444--7777777777777777--4~-----9~--|
E --------------------5555555555555555--2~-----7~--|
Bridge: Guitar 2
e|--------------------------------------------------------------------------
B|--------------------------------------------------------------------------
G|--9~----9~--9~-9----------------------9~----9~-9~-9-----------------------
D|--9~----9~--9~-9----7~----7~--7~-7~---9~----9~-9~-9----7~----7~--7~-7~----
A|--7~----7~--7~-7----7~----7~--7~-7~---7~----7~-7~-7----7~----7~--7~-7~----
E|--------------------5~----5~--5~-5~--------------------5~----5~--5~-5~----
e --------------------------------------0~---------|
B --------------------------------------0~---------|
G --6~----6~--6~-6----------------------3~---------|
D --6~----6~--6~-6----7~----7~--7~-7----4~---------|
A --4~----4~--4~-4----7~----7~--7~-7----4~---------|
E --------------------5~----5~--5~-5----2~---------|

Solo:
e|--0000-000000000000---0-0-0-0-0-0-0-0-0-0-0-0-0-0-0-0----
B|--7779-555555555555--10101010101010101010101010101010----
G|---------------------------------------------------------
D|---------------------------------------------------------
A|---------------------------------------------------------
E|---------------------------------------------------------
e -0-0-0-0-0-0-0-0-0-0-0-0---0--0--0--0--0--0--0--0--0--0--0--0--0--0--0--0-|
B 121212121212121212121212--15b15b15b15b15b15b15b15b15b15b15b15b15b15b15b15b|
G --------------------------------------------------------------------------|
D --------------------------------------------------------------------------|
A --------------------------------------------------------------------------|
E --------------------------------------------------------------------------|

Chorus: Guitar 1
e|--0000000000000000--0000000000000000--0000000000000000000000000000--00--|
B|--0000000000000000--0000000000000000--0000000000000000000000000000--00--|
G|--9999999999999999--8888888888888888--6666666666666666666666666666--88--|
D|--9999999999999999--9999999999999999--7777777777777777777777777777--99--|
A|--7777777777777777--9999999999999999--7777777777777777777777777777--99--|
E|--------------------7777777777777777--5555555555555555555555555555--77--|
e|--0000000000000000--0000000000000000--0000000000000000--0000000000000000-|
B|--0000000000000000--0000000000000000--0000000000000000--0000000000000000-|
G|--9999999999999999--8888888888888888--6666666666666666--6666666666666666-|
D|--9999999999999999--9999999999999999--7777777777777777--6666666666666666-|
A|--7777777777777777--9999999999999999--7777777777777777--4444444444444444-|
E|--------------------7777777777777777--5555555555555555-------------------|
e|--0000000000000000--00000---0-----|
B|--0000000000000000--00000---0-----|
G|--6666666666666666--88888--\1~----|
D|--7777777777777777--99999--\2~----|
A|--7777777777777777--99999--\2~----|
E|--5555555555555555--77777--\0~----|
 
Chorus: Guitar 2 (listen for alternate strumming)
e|--0~--------------------------------------------------------------------|
B|--0~--------------------------------------------------------------------|
G|--1~--------------------------------------------------------------------|
D|--2~----------------9~----------------7~----------------------------9---|
A|--2~----------------9~----------------7~----------------------------9---|
E|--0~----------------7~----------------5~----------------------------7---|
e|-------------------------------------------------------------|
B|-------------------------------------------------------------|
G|--9~----------------------------------------------------6~---|
D|--9~----------------9~----------------7~----------------6~---|
A|--7~----------------9~----------------7~----------------4~---|
E|--------------------7~----------------5~---------------------|

e|-----------------------------------|
B|-----------------------------------|
G|-----------------------------------|
D|--7~----------------9~------\2~----|
A|--7~----------------9~------\2~----|
E|--5~----------------7~------\0~----|
 
Provided by Aaron Meredith, www.taborama.com
Bass:
Tuning: Standard (E A D G)
 
Verse 1-
(bass doesn't come in until the last part of the verse.)
A|------------------------------2--------
E|0----------0---------2-----------------

Chorus-
A|7----------------------------------------7--------Repeat
E|-----------7---------5---------7------------------

When going from the chorus to the second verse play
E|--0----------------------0----------

Verse 2-
A|2-4-4-4--2-4-4-4--4422-sit for a sec, then do

A|2-4-4-4--2-4-4-4--4422--00-12-0--00-12-0------------------------------------
E|-----------------------------------------5533--2222-2222-224-5555-5555-557--Repeat bottom part

back to the chorus....

bridge.
A|7777777777777777---------------------|3 times |----2-
E|----------------5555555555555555-----|then do |--2---
Back to the chorus, but repeat the E|5--------7| until the end

Provided by ZealotWarrior777, www.taborama.com